música
Buscador

Acorde de Inventas - Vanesa Martin

Letra de Inventas

 ___ acordes _____

| |

| G: 320001 |

| C: 032010 |

| D: 000232 |

| Em: 011000 |

| Am: 002210 |

| Bm: 224432 |

|_________________|





[cejilla en el 1er traste]



[intro]x2:

G C

E-||--|-----------------|----------------

B-||--|-----------------|----------------

G-||-2s4-----2s4-4-2s0-4s5--5--4s5-5-4s2-

D-||--|-----------------|----------------

A-||--|-----------------|----------------

E-||--|-----------------|----------------



D G [Riff1]

E-||--|-----------------|-----------------|

B-||--|-----------------|-----------------|

G-||-4s5--5--4s5-5-4s2--|--4--------------|

D-||--|-----------------|-----------------|

A-||--|-----------------|-----------------|

E-||--|-----------------|-----------------|







G C

De todas las mujeres que habitan en mí

D G

juro que hay algunas que yo ni conozco.

G C [Riff1]

Inevitablemente ya me acostumbré

D G

a dejarle a la izquierda lo que no controlo.



Em Am

Dices que hace un año que no estoy aquí,

D G

acaba de caer un jarro de agua fría.

Em Am

En este túnel nadie nos podrá escuchar,

C D

no hay cobertura de tu boca a la mía





C

Inventas

D

una excusa más y te lamentas,

G

mi lector de ojos no te encuentra

Bm Em [Riff1]

como sí que encuentra tu intención.



C

Accedes

D

a mi manual de “tú no puedes”,

G Bm

detectas el fallo y te me creces

Em D

vas al rojo ganador,

C D [Riff2]

vas al rojo ganador.





G C

Es demasiado tarde para dar la vuelta,

D G

demasiado pronto para saber quién soy.

G C [Riff1]

Mi vida se quedó rondando alguna puerta

D G

alguna puerta pero también saltó a pleno pulmón.

https://www.coveralia.com/acordes/inventas-vanesa-martin.php


Em Am

Las tornas van cambiando y yo no pido cuentas,

D G

en más de una ocasión me he jodido yo.

Em Am

Vencí al delirio por la escuadra y sin grandeza

C D

y nos vamos a la cama sigue siendo “nos”.



C

Inventas

D

una excusa más y te lamentas,

G

mi lector de ojos no te encuentra

Bm Em [Riff1]

como sí que encuentra tu intención.



C

Accedes

D

a mi manual de “tú no puedes”,

G Bm

detectas el fallo y te me creces

Em D [Riff1]

vas al rojo ganador





C

Inventas

D

una excusa más y te lamentas,

G

mi lector de ojos no te encuentra

Bm Em D

como sí que encuentra tu intención.



C

Accedes

D

a mi manual de “tú no puedes”,

G Bm

detectas el fallo y te me creces

Em

vas al rojo ganador,

D C D

vas al rojo ganador.





G C

De todas las mujeres que habitan en mí

D G

juro que hay algunas ... que yo ni conozco









[Riff1]:

D

E-||--|-----------------|-----------------|

B-||-8|---8---8---8---8-|-----------------|

G-||--|-11--9---7-------|7----------------|

D-||--|------------10---|-----------------|

A-||--|-----------------|-----------------|

E-||--|-----------------|-----------------|



[Riff1]:

D

E-||--|-----------------|-----------------|

B-||-8|---8---8---------|-----------------|

G-||--|-11--9---7-------|-----------------|

D-||--|-----------------|-----------------|

A-||--|-----------------|-----------------|

E-||--|-----------------|-----------------|







Letra subida por: Anónimo

El acorde de Inventas de Vanesa Martin es una versión de la canción original realizada por colaboradores/usuarios de Coveralia.

¿Has encontrado algún error en esta página? Envíanos tu corrección del acorde